1 1 1 1 1 1 1 1 1 1 Votación 0.00 (0 Votos)
Escrito por entreCristianos
Publicado el 12 Junio 2010
Imprimir
 

Acordes:



INTRO:

C         G        Em         D

E --------------3-3-3-3---------------------------------------
A ----3-3-3-3---5-5-5-5---7-7-7-7---5-5-5-5-------------------
D ----5-5-4-5---5-5-5-5---9-9-9-9---7-7-7-7-------------------
G ----5-5-5-5-------------9-9-9-9---7-7-7-7-------------------
B ------------------------------------------------------------
e ------------------------------------------------------------

C         G        Em        D

E --------------3-3-3-3---------------------------------------
A ----3-3-3-3---5-5-5-5---7-7-7-7---5-5-----------------------
D ----5-5-4-5---5-5-5-5---9-9-9-9---7-7-----------------------
G ----5-5-5-5-------------9-9-9-9---7-7-----------------------
B ------------------------------------------------------------
e ------------------------------------------------------------

ESTROFA:

C            G       Em           D
Por tu bondad en mí, siempre te alabare
C            G       Em          D
Tu gran amor por mi, me hace reír y cantar
C            G       Em            D
Por tu perdón en mí, siempre permaneceré
C            G  Em          D
Eres tan bueno, quiero saltar y gritar

(Eres tan bueno quiero saltar y gritar)(Solo la 1 vez)

E -------------------------------------------------------
A -------------------------------------------------------
D -------------------------------------------------------
G -------------------------------------------------------
B -----15-13------15-13------15-13-----------------------
e ---15-----15--15-----15--15-----15---14-15-15/17-15----


PREOCORO:

Am            C-D
Queremos cantarte...
Am            C            D
E -------------------------------------------------------
A -------------------------------------------------------
D ---------------5-7-------------------------------------
G ------------------5-7----------------------------------
B ---------------------5-8-------8-----8~~---------------
e ------------------------5-8p7p5-8p7p5------------------


CORO:

G    D     Am
Santo eres Dios
C        D
Invencible y fuerte
G    D    Am
Tu gran amor
C      D
Durará por siempre


PUENTE:

Em                           C
E ------------------------------------------------------
A ---2-2-2-2-2--2-2-2-2-2-2------3-3-3-3-3--3-3-3-3-3-3-
D ---2-2-4-4-5--5-5-4-5-4-2------5-4-5-4-5--5-5-4-5-4-2-
G ------------------------------------------------------
B ------------------------------------------------------
e ------------------------------------------------------

Em                           C       G
E --------------------------------------------------3---
A ---2-2-2-2-2--2-2-2-2-2-------3-3-3-3-3--3-3------2---
D ---4-4-5-4-5--5-5-4-5-4-------5-4-5-4-5--5-5------0---
G --------------------------------------------------0---
B --------------------------------------------------3---
e --------------------------------------------------3---

Repites eso pero sin el G en el puente (trata esa parte de
rasguear para q suene bien)

Em            C
Invencible Dios
Em            C
Te cantamos hoy
Em            C
Por tu gran amor
Em         C
Te adoraré

Letra:



Por tu bondad en mí, siempre te alabare
Tu gran amor por mi, me hace reír y cantar
Por tu perdón en mí, siempre permaneceré
Eres tan bueno, quiero saltar y gritar

Queremos cantarte...


Santo eres Dios
Invencible y fuerte
Tu gran amor
Durará por siempre

Invencible Dios
Te cantamos hoy
Por tu gran amor
Te adoraré
 
 
Más Música Cristiana con videos, letras y acordes

musicaCristiana

Tenemos una gran colección de videos con sus letras y acordes para guitarra. Puedes revisarlos en las siguientes seccione:

- Música Cristiana en Español
- Musica Cristiana en Inglés


 

etiquetas:
 Suscríbete al boletín:
 
Estás aquí:   

¡Atención! utilizamos cookies

Al navegar por entreCristianos entendemos que aceptas su uso. Saber más

Acepto